If you are looking for Whole ukulele chords, you already come to the best place.
You can play versatile instrument Whole using ukulele or guitar.
This song by Basement can also be played by that instruments.
=

Whole chords has rhythm and included in colourmeinkindness (2012) album.
You can also find other musical genres, including jazz ukulele chords, country music ukulele chords, pop ukulele chords, world music ukulele chords, and rock ukulele chords here.

Whole by Basement Ukulele Chords

basement – whole

Drop C#

intro


eb|-------------------------|
Bb|-------------------------|
Gb|--6-6--6--6-6-/--11------|
Db|-------------------------|
Ab|--4-4--4--4-4-/--9-------|
Db|--0-0--0--0-0----0-------|

pre-verse(‘?)


eb|------------------------------------------------------------|
Bb|----------------------------0--0---0--0---0--0--0--0--0--0--|
Gb|-6-6--6-6-/-11-1111-111111--16-16--16-16--15-15-15-15-15-15-|
Db|----------------------------0--0---0--0---0--0--0--0--0--0--| x2
Ab|-4-4--4-4-/-9--9-9--9-9-9---14-14--14-14--13-13-13-13-13-13-|
Db|-0-0--0-0---0--0-0--0-0-0-----------------------------------|
eb|------------------------------------------------------------|
Bb|----------------------------0--0---0--0---0--0--0--0--0--0--|
Gb|-6-6--6-6-/-11-11-9--7--9---16-16--16-16--15-15-15-15-15-15-|
Db|----------------------------0--0---0--0---0--0--0--0--0--0--|
Ab|-4-4--4-4-/-9--9--7--5--7---14-14--14-14--13-13-13-13-13-13-|
Db|-0-0--0-0---0--0--0--0--0-----------------------------------|
eb|------------------------------------------------------------|
Bb|----------------------------0--0---0--0---0--0--0--0--0--0--|
Gb|-6-6--6-6-/-11-1111-111111--16-16--16-16--15-15-15-15-15-15-|
Db|----------------------------0--0---0--0---0--0--0--0--0--0--|
Ab|-4-4--4-4-/-9--9-9--9-9-9---14-14--14-14--13-13-13-13-13-13-|
Db|-0-0--0-0---0--0-0--0-0-0-----------------------------------|

verse (played quieter/softer)


eb|------------------------------------------------------------| |lyrics|
Bb|----------------------------0--0---0--0---0--0--0--0--0--0--| Let it out
Gb|-6-6--6-6-/-11-1111-111111--16-16--16-16--15-15-15-15-15-15-| Tell me what you want me to hear
Db|----------------------------0--0---0--0---0--0--0--0--0--0--|x2 Push it out
Ab|-4-4--4-4-/-9--9-9--9-9-9---14-14--14-14--13-13-13-13-13-13-| Tell me that you still want me here
Db|-0-0--0-0---0--0-0--0-0-0-----------------------------------|

pre-chorus
(rhythm)


eb|------------------------------------------------------------| |lyrics|
Bb|----------------------------0--0---0--0---0--0--0--0--0--0--| deep inside this hole
Gb|-6-6--6-6-/-11-1111-111111--16-16--16-16--15-15-15-15-15-15-| i will offer you my soul
Db|----------------------------0--0---0--0---0--0--0--0--0--0--|x2 waiting, hoping with each breath
Ab|-4-4--4-4-/-9--9-9--9-9-9---14-14--14-14--13-13-13-13-13-13-| that you will leave it in my chest
Db|-0-0--0-0---0--0-0--0-0-0-----------------------------------|

(lead guitar) (gradually release palm mute)


eb|------------------------------------------------------------|
Bb|------------------------------------------------------------|
Gb|------------------------------------------------------------|
Db|--4-4-4-4-4-4-4-4-4-4-4-4-4-4-4-4-4-4-4-4-4-4-4-4-4-4-4-4-4-|
Ab|--4-4-4-4-4-4-4-4-4-4-4-4-4-4-4-4-4-4-4-4-4-4-4-4-4-4-4-4-4-|
Db|--4-4-4-4-4-4-4-4-4-4-4-4-4-4-4-4-4-4-4-4-4-4-4-4-4-4-4-4-4-|

chorus
(rhythm guitar)


eb|------------------------------------------------------------------|
Bb|------------------------------------------------------------------|
Gb|--------------------------------------------------1111111111b-9-7-|
Db|-5-5-5-5-5-5-5-5-4-4-4-4-4-4-4-4-5-5-5-5-5-5-5-5------------------|
Ab|-5-5-5-5-5-5-5-5-4-4-4-4-4-4-4-4-5-5-5-5-5-5-5-5--9-9-9-9-9b--7-5-| |lyrics|
Db|-5-5-5-5-5-5-5-5-4-4-4-4-4-4-4-4-5-5-5-5-5-5-5-5--0-0-0-0-0---0-0-| lie to me

lie to me
(lead guitar) make me see


eb|------------------------------------------------------------------|
Bb|-----7------7-------7-------7-------7-------7---------------------|
Gb|---9--9---9---9---9---9---9---9---9---9---9---9---1111111111b-9-7-|
Db|-9------9-------8-------8-------9-------9-------------------------|
Ab|--------------------------------------------------9-9-9-9-9b--7-5-|
Db|------------------------------------------------------------------|

(rhythm guitar)


eb|---------------------------------------------------|
Bb|---------------------------------------------------|
Gb|-4-4-4-4-4-4-4-4-3-3-3-3-3-3-3-3-4-4-4-4-4-4-4-4---|
Db|-5-5-5-5-5-5-5-5-4-4-4-4-4-4-4-4-5-5-5-5-5-5-5-5---|
Ab|-5-5-5-5-5-5-5-5-4-4-4-4-4-4-4-4-5-5-5-5-5-5-5-5---| |lyrics|
Db|-5-5-5-5-5-5-5-5-4-4-4-4-4-4-4-4-5-5-5-5-5-5-5-5---| lie to me

lie to me
(lead guitar) make me…


eb|---------------------------------------------------|
Bb|-----7------7-------7-------7-------7-------7------|
Gb|---9--9---9---9---9---9---9---9---9---9---9---9----|
Db|-9------9-------8-------8-------9-------9----------|
Ab|---------------------------------------------------|
Db|---------------------------------------------------|

pre-verse(‘?)


eb|------------------------------------------------------------|
Bb|----------------------------0--0---0--0---0--0--0--0--0--0--| |lyrics|
Gb|-6-6--6-6-/-11-1111-111111--16-16--16-16--15-15-15-15-15-15-| ...see
Db|----------------------------0--0---0--0---0--0--0--0--0--0--| x2
Ab|-4-4--4-4-/-9--9-9--9-9-9---14-14--14-14--13-13-13-13-13-13-|
Db|-0-0--0-0---0--0-0--0-0-0-----------------------------------|
eb|------------------------------------------------------------|
Bb|----------------------------0--0---0--0---0--0--0--0--0--0--|
Gb|-6-6--6-6-/-11-11-9--7--9---16-16--16-16--15-15-15-15-15-15-|
Db|----------------------------0--0---0--0---0--0--0--0--0--0--|
Ab|-4-4--4-4-/-9--9--7--5--7---14-14--14-14--13-13-13-13-13-13-|
Db|-0-0--0-0---0--0--0--0--0-----------------------------------|
eb|------------------------------------------------------------|
Bb|----------------------------0--0---0--0---0--0--0--0--0--0--|
Gb|-6-6--6-6-/-11-1111-111111--16-16--16-16--15-15-15-15-15-15-|
Db|----------------------------0--0---0--0---0--0--0--0--0--0--|
Ab|-4-4--4-4-/-9--9-9--9-9-9---14-14--14-14--13-13-13-13-13-13-|
Db|-0-0--0-0---0--0-0--0-0-0-----------------------------------|

prechorus 2
(gradually release palm mute)


eb|---------------------------------------------------------------------|
Bb|---------------------------------------------------------------------|
Gb|----------------------------------------------------3333333333333333-|

Db|-7777777777777777-4444444444444444-5555555555555555-4444444444444444-|
Ab|-5555555555555555-4444444444444444-5555555555555555-4444444444444444-|
Db|-5555555555555555-4444444444444444-5555555555555555-4444444444444444-|

|lyrics|
deep inside this hole
i will offer you my soul
waiting, hoping with each breath that
you will leave it in my chest

chorus
(rhythm guitar)


eb|------------------------------------------------------------------|
Bb|------------------------------------------------------------------|
Gb|--------------------------------------------------1111111111b-9-7-|
Db|-5-5-5-5-5-5-5-5-4-4-4-4-4-4-4-4-5-5-5-5-5-5-5-5------------------|
Ab|-5-5-5-5-5-5-5-5-4-4-4-4-4-4-4-4-5-5-5-5-5-5-5-5--9-9-9-9-9b--7-5-| |lyrics|
Db|-5-5-5-5-5-5-5-5-4-4-4-4-4-4-4-4-5-5-5-5-5-5-5-5--0-0-0-0-0---0-0-| lie to me

lie to me
(lead guitar) make me see


eb|------------------------------------------------------------------|
Bb|-----7------7-------7-------7-------7-------7---------------------|
Gb|---9--9---9---9---9---9---9---9---9---9---9---9---1111111111b-9-7-|
Db|-9------9-------8-------8-------9-------9-------------------------|
Ab|--------------------------------------------------9-9-9-9-9b--7-5-|
Db|------------------------------------------------------------------|

(rhythm guitar)


eb|---------------------------------------------------|
Bb|---------------------------------------------------|
Gb|-4-4-4-4-4-4-4-4-3-3-3-3-3-3-3-3-4-4-4-4-4-4-4-4---|
Db|-5-5-5-5-5-5-5-5-4-4-4-4-4-4-4-4-5-5-5-5-5-5-5-5---|
Ab|-5-5-5-5-5-5-5-5-4-4-4-4-4-4-4-4-5-5-5-5-5-5-5-5---| |lyrics|
Db|-5-5-5-5-5-5-5-5-4-4-4-4-4-4-4-4-5-5-5-5-5-5-5-5---| lie to me

lie to me
(lead guitar) make me…


eb|---------------------------------------------------|
Bb|-----7------7-------7-------7-------7-------7------|
Gb|---9--9---9---9---9---9---9---9---9---9---9---9----|
Db|-9------9-------8-------8-------9-------9----------|
Ab|---------------------------------------------------|
Db|---------------------------------------------------|

breakdown
(rhythm guitar) (low fuzz distortion)


eb|-------------------------------|
Bb|-------------------------------|
Gb|-------------------------------|
Db|--2h4-4-4-4--2h4-4-4-4b-4-4----| x3
Ab|--2h4-4-4-4--2h4-4-4-4b-4-4----|
Db|--2h4-4-4-4--2h4-4-4-4b-4-4----|
eb|-------------------------------|
Bb|--------------[harmonics/-]----|
Gb|--------------[open-strings]---|
Db|--2h4-4-4-4--------------------|
Ab|--2h4-4-4-4--------------------|
Db|--2h4-4-4-4--------------------|

outro/breakdown
(rhythm guitar) (full distortion)


eb|-------------------------------|
Bb|-------------------------------|
Gb|---------------------4-4-4-4---|
Db|--2h4-4-4-4--2h4-4-4-4-4-4-4---| x12
Ab|--2h4-4-4-4--2h4-4-4-2-2-2-2---|
Db|--2h4-4-4-4--2h4-4-4-----------|

(lead guitar)


eb|--0--2--0---------------------|
Bb|------------------------------|
Gb|-----------3-3-3-3-3b-3-3-----|
Db|------------------------------| x12
Ab|------------------------------|
Db|------------------------------|

RIP BASEMENT

To play the most songs, including Whole by Basement by ukulele, the most important basic ukulele chords to learn are C chord, D chord, G chord, and Em chord.
These set you up to play a ton of songs, and each of them is easy to learn.

Categorized in:

Tagged in: